I HATE MARISSA's journal

> recent entries
> calendar
> friends
> profile

Tuesday, March 2nd, 2004
6:18p - Board,tired,sick bitchy
Damn i think i'm getting sick not like you guys care,what happened this week,nothing this week is f-cat i probably am gonna fail it,oh well i'm board the air is hot my throat herts,i'll stop camplaining now,i can't spell for shit i'm board so i'm getting of this entry it's pointless and boaring asn you won't even read it so why the fuck should i try, i'm leaving

current mood: sick
current music: Phantom Planet-big brat

(comment on this)

6:28p - tabs for c'mon c'mon
e|--------------------------------------------------------------------------
B|--------------------------------------------------------------------------
G|----------9-9-----------------------------99-999--------------------------
D|---10-10--9-9--5/77--5/77-------33---55---99-999--------------------------
A|---10-10--7-7--5/77--5/77-x3----33---55---77-777--------------------------
E|-7--8--8-------3/55--3/55-------11-0-33-0---------------------------------
PM===============================================================

Chorus

e|--------------------------------------------------------------------------
B|--------------------------------------------------------------------------
G|----------9-9-----------------------------99-999--------------------------
D|---10-10--9-9--5/77--5/77-----4-33---55---99-999--------------------------
A|---10-10--7-7--5/77--5/77-x3--4-33---55---77-777--------------------------
E|-7--8--8-------3/55--3/55-----2-11-0-33-0---------------------------------


current mood: tired
current music: the von bondies-going down

(comment on this)

6:28p - tabs for c'mon c'mon
e|--------------------------------------------------------------------------
B|--------------------------------------------------------------------------
G|----------9-9-----------------------------99-999--------------------------
D|---10-10--9-9--5/77--5/77-------33---55---99-999--------------------------
A|---10-10--7-7--5/77--5/77-x3----33---55---77-777--------------------------
E|-7--8--8-------3/55--3/55-------11-0-33-0---------------------------------
PM===============================================================

Chorus

e|--------------------------------------------------------------------------
B|--------------------------------------------------------------------------
G|----------9-9-----------------------------99-999--------------------------
D|---10-10--9-9--5/77--5/77-----4-33---55---99-999--------------------------
A|---10-10--7-7--5/77--5/77-x3--4-33---55---77-777--------------------------
E|-7--8--8-------3/55--3/55-----2-11-0-33-0---------------------------------


current mood: tired
current music: the von bondies-going down

(comment on this)

6:28p - tabs for c'mon c'mon
e|--------------------------------------------------------------------------
B|--------------------------------------------------------------------------
G|----------9-9-----------------------------99-999--------------------------
D|---10-10--9-9--5/77--5/77-------33---55---99-999--------------------------
A|---10-10--7-7--5/77--5/77-x3----33---55---77-777--------------------------
E|-7--8--8-------3/55--3/55-------11-0-33-0---------------------------------
PM===============================================================

Chorus

e|--------------------------------------------------------------------------
B|--------------------------------------------------------------------------
G|----------9-9-----------------------------99-999--------------------------
D|---10-10--9-9--5/77--5/77-----4-33---55---99-999--------------------------
A|---10-10--7-7--5/77--5/77-x3--4-33---55---77-777--------------------------
E|-7--8--8-------3/55--3/55-----2-11-0-33-0---------------------------------


current mood: tired
current music: the von bondies-c'mon c'mon

(comment on this)

6:30p - soorry
if your wondering sometimes why the same entry is like posted on like 5 times it is because i have no patents and i click it 100 times and thats what happens thats just if you were wondering and if you don't care well then fuck you

current mood: sleepy
current music: The Von Bondies-C'mon C'mon

(comment on this)

6:30p - soorry
if your wondering sometimes why the same entry is like posted on like 5 times it is because i have no patents and i click it 100 times and thats what happens thats just if you were wondering and if you don't care well then fuck you

current mood: sleepy
current music: The Von Bondies-C'mon C'mon

(comment on this)

6:34p - the intro for c'mon c'mon
Intro:
e|---------------------------------------------------------------|
B|---------------------------------------------------------------|
G|---------------------------------------------------------------|
D|---------------------------------------------------------------|
A|2--3-3---5--7-7------------------2--3-3--5--7-7----------------|
E|----------------3--5-5--3--5-5-----------------3--5-5--3--5-5--|

PM...............................................................

e|---------------------------------------------------------------|
B|---------------------------------------------------------------|
G|---------------------------------------------------------------|
D|---------------------------------------------------------------|
A|2--3-3---5--7-7--------------------------------7-7-7--7-7-7----|
E|----------------3--5-5--3--5-5---1-1-1--3-3-3------------------|

PM...............................................................


current music: The Von Bondies-C'mon C'mon

(comment on this)

6:34p - bass tabs for c'mon c'mon
Intro/Verse/Chorus/Outro
G|---------------------------------
D|---------------------------------
A|-2-3-3-5-7-7---------------------
E|-------------3-5-5---------------

Variation during verse:

G|---------------------------------
D|---------------------------------
A|-2-3-3-5-7-7---------------------
E|-------------3-5-5-3-0-0-3-7-7---

(comment on this)

6:35p - tabs for lack of communication (guitar)
Gtr2
e]------------------------------------------|
B]------------------------------------------|
G]------------------------------------------|
D]------------------------------------------|
A]-----------------------3-----2-----0------|
E]------------------------------------------| x3

Gtr1 A7 / / / / / ////// A7 / / / / / //////

Gtr2
e]------------------------------------------|
B]------------------------------------------|
G]------------------------------------------|
D]------------------------------------------|
A]-----------------------------------0------|
E]-----------------------3-----2------------|

Section 2

Gtr1 A / G / C / D /

Gtr2
e]------------------------------------------|
B]------------------------------------------|
G]------------------------------------------|
D]------------------------------------------|
A]-----------------------3----3----5-3--5-3-|
E]---5----5----3----3-----------------------| x10

Section 3
This is played twice between the setions ( except the first time where there is silence)

Gtr1 G / / / D / /


current mood: drained
current music: the von bondies -lack of communication

(comment on this)


<< previous day [calendar] next day >>

> top of page
Blurty.com